Overblog Suivre ce blog
Editer l'article Administration Créer mon blog

Présentation

  • : Guitare mandocello Bouzouki Cistre Ukulele Accordeon
  •  Guitare mandocello Bouzouki Cistre Ukulele Accordeon
  • : compositeur, Arrangeur, Multi-Instrumentiste et Ingé son . Réalisation en Home Studio environnement Avid-Pro tools
  • Contact

Profil

  • Dominique Rivière
  • Multi-Instrumentiste Compositeur Arrangeur
  • Multi-Instrumentiste Compositeur Arrangeur

Recherche

25 mai 2005 3 25 /05 /mai /2005 23:00

Ci-joint "Hardiman Filder " une Slip Jig extraite de mon cd. l'accordage est en DADGAD,j'utilise également la technique "frailing" sur certaines notes.

un extrait vidéo est disponible sur mon site:

http://dom-riviere.tk

HARDIMAN FILDER
(trad irish)
Arrgt: Dominique Rivière
Tuning : D A D G A D  Time Signature: 9/8

 |           |           |            |   a m i   |           frailing    
|------------------------------------|------------------------------------|
|0-----------------------------------|----0-0-0---------------3---0-------|
|2p------0-----------------------0---|2-----------2p--0h--2-----------0---|
|------------4p--0---2---4-----------|------------------------------------|
|------------------------------------|------------------------------------|
|0-----------0-----------0-----------|0-----------0-----------------------|

 |           |           |            |           |           frail       
|------------------------------------|----0-------0h--2p--0---------------|
|0-----------------------------------|--------4---------------3---0-------|
|2p------0-----------------------0---|2-------------------------------0---|
|------------4p--0---2---4-----------|------------------------------------|
|------------------------------------|------------------------------------|
|0-----------0-----------0-----------|0-----------0-----------------------|

 |   a m i   |           |            |   a m i   |           frail       
|----0-0-0---0-------2---4p--2p--0---|----0-0-0---0h--2p--0---------------|
|0-----------------------------------|0-----------------------3---0-------|
|2-----------------------------------|2-------------------------------0---|
|------------------------------------|------------------------------------|
|------------------------------------|------------------------------------|
|0-----------0-----------0-----------|0-----------0-----------------------|

 |   a m i   |           |            |           |           frail       
|----0-0-0---0-------2---4-------5---|7p--5/--4---5p--4p--0---------------|
|0-----------------------------------|------------------------3---0-------|
|2-----------------------------------|--------------------------------0---|
|------------------------------------|------------------------------------|
|------------------------------------|------------------------------------|
|0-----------0-----------0-----------|0-----------0-----------------------|

 |   a m i   |           |            |   a m i   |           frail       
|----0-0-0---0-------2---4p--2p--0---|----0-0-0---0h--2p--0---------------|
|0-----------------------------------|0-----------------------3---0-------|
|2-----------------------------------|2-------------------------------0---|
|------------------------------------|------------------------------------|
|------------------------------------|------------------------------------|
|0-----------0-----------0-----------|0-----------0-----------------------|

 |           |           |            |           |           frail       
|0---------------0---2---4-------5---|7p--5/--4---5p--4p--0---------------|
|----3p--0---2h3---------------------|------------------------3---0-------|
|------------------------------------|--------------------------------0---|
|------------------------------------|------------------------------------|
|------------------------------------|------------------------------------|
|0-----------0-----------0-----------|0-----------0-----------------------|


Created with TablEdit http://www.tabledit.com/

Partager cet article

Repost 0

commentaires