Overblog Suivre ce blog
Editer l'article Administration Créer mon blog

Présentation

  • : Guitare mandocello Bouzouki Cistre Ukulele Accordeon
  •  Guitare mandocello Bouzouki Cistre Ukulele Accordeon
  • : compositeur, Arrangeur, Multi-Instrumentiste et Ingé son . Réalisation en Home Studio environnement Avid-Pro tools
  • Contact

Profil

  • Dominique Rivière
  • Multi-Instrumentiste Compositeur Arrangeur
  • Multi-Instrumentiste Compositeur Arrangeur

Recherche

18 juin 2005 6 18 /06 /juin /2005 23:00

Ci-joint un « trad Irish » THE ROAD OF LISDOONVARNA

Thème + accompagnement pour BOUZOUKI en EADG . En ce qui concerne la mélodie pas de difficultés apparentes à part la maîtrise du « plectre »   main droite. La rythmique est plus dans un esprit « REEL » contemporain, chacune des trois parties est à jouer deux fois.

THE ROAD TO LISDOONVARNA
trad
ARRGT:DOMINIQUE RIVIERE
Tuning : G D A E  Time Signature: 4/4

 thème   |       |       |        |       |       |       |       
|--------2-----------------------|--------------------------------|
|5-----------5---4---0---0-0-0---|2---------------4---0---0-0-0---|
|--------------------------------|----5---5-5-5-------------------|
|--------------------------------|--------------------------------|

 |       |       |       |        |       |       |       |       
|--------2-----------------------|--------------------------------|
|5-----------5---4---0---0-0-0---|2-------0-----------------------|
|--------------------------------|----5-------4---0---------------|
|--------------------------------|--------------------------------|

 |       |       |       |        |       |       |       |       
|--------------------------------|--------------------------------|
|0---------------0---2h--3---0---|----0---------------------------|
|------------5-------------------|5-------5---4---2---4---5-------|
|--------------------------------|--------------------------------|

 |       |       |       |        |       |       |       |       
|--------------------------------|--------------------------------|
|0---2---0-------0---2h--3---0---|--------3-----------------------|
|------------5-------------------|5---2-------2---0---------------|
|--------------------------------|--------------------------------|

 |       |       |       |        |       |       |       |       
|--------------------------------|--------------------------------|
|----0---0-------0---2h--3---0---|----------------3---------------|
|0-----------5-------------------|5---2---2-2-2-------2---5---2---|
|--------------------------------|--------------------------------|

 |       |       |       |        |       |       |       |       
|--------------------------------|--------------------------------|
|----0---0-------0---2h--3---0---|--------3-----------------------|
|0-----------5-------------------|5---2-------2---0---------------|
|--------------------------------|--------------------------------|


Created with TablEdit http://www.tabledit.com/
THE ROAD TO LISDOONVARNA
trad
ARRGT:DOMINIQUE RIVIERE
Tuning : G D A E  Time Signature: 4/4

 bouzouki|acc    |       |        |       |       |       |       
|--------2---------------5-------|--------3-----------0-------0---|
|5-----------5---4-----------4---|2-----------2---0-------4-------|
|--------------------------------|--------------------------------|
|--------------------------------|--------------------------------|

 |       |       |       |        |       |       |       |       
|--------2---------------5-------|--------------------------------|
|5-----------5---4-----------4---|------------0-------------------|
|--------------------------------|5-------4-------0---------------|
|--------------------------------|--------------------------------|

 |       |       |       |        |       |       |       |       
|5-------------------------------|3---------------0---------------|
|7-------------------------------|5---------------2---------------|
|7-------------------------------|5---------------2---------------|
|--------------------------------|--------------------------------|

 |       |       |       |        |       |       |       |       
|5-------------------------------|0---------------5---------------|
|7-------------------------------|3---------------0-----------0---|
|7-------------------------------|5---------------0h--4h--5p------|
|--------------------------------|5---------------7---------------|

 |       |       |       |        |       |       |       |       
|5-------------------------------|0-------------------------------|
|0-------------------------------|3-------------------------------|
|0-------------------------------|5-------------------------------|
|7-------------------------------|5-----------------------4p--5---|

 |       |       |       |        |       |       |       |       
|5-------------------------------|0-------------------------------|
|0-------------------------------|3---------------------------0---|
|0-------------------------------|5---------------0h--4h--5-------|
|7-------------------------------|5-------------------------------|


Created with TablEdit http://www.tabledit.com/

Partager cet article

Repost 0

commentaires

alain gardonne 03/08/2005 13:46

j,ai trouvé sur votre site web la version audio (mp3)ce qui facilite la compréhesion du jeu.
merci pour ce très bel arrangement
alain