Overblog Suivre ce blog
Editer l'article Administration Créer mon blog

Présentation

  • : Guitare mandocello Bouzouki Cistre Ukulele Accordeon
  •  Guitare mandocello Bouzouki Cistre Ukulele Accordeon
  • : compositeur, Arrangeur, Multi-Instrumentiste et Ingé son . Réalisation en Home Studio environnement Avid-Pro tools
  • Contact

Profil

  • Dominique Rivière
  • Multi-Instrumentiste Compositeur Arrangeur
  • Multi-Instrumentiste Compositeur Arrangeur

Recherche

18 avril 2005 1 18 /04 /avril /2005 23:00

Quelques indications concernant ce ( Trad- Breizh) La guitare est accordée en DADGAD avec un capo à la 2ème case. Le mélange des mesures 3/4 et 2/4 ainsi que les basses décalées ajoutent un petit effet bien sympathique. Les Hammers et Pull-of complètent l’ensemble. Attention au triplet dans la 8ème mesure qui est exécuté à la main droite par l’annulaire ensuite le majeur et l’index.

utiliser le zoom pour plus de lisibilité

Tout d’bon

Dom

http://www.dom-riviere.tk

AN ALAC'H
(trad breizh)
Arrgt:Dominique Rivière
www.dom-riviere.tk

 Capo 2  |       |        |       |       |        |       |        
|------------------------|------------------------|----------------|
|----------------0h--2---|3-------0---------------|0-------0---2---|
|------------------------|----------------0---4---|----------------|
|------------2-----------|------------------------|----2-----------|
|------------------------|----0h--0---------------|----0h--0-------|
|------------------------|----------------5-------|----------------|
 
 |       |       |        |       |       |        |       |       |        
|------------------------|------------------------|2-----2p0---------------|
|3-------0-----------2---|0-----------0h--3---5---|------------3---3-------|
|----------------0-------|------------------------|0---------------2-------|
|3-----------------------|--------2---------------|------------------------|
|----------------2-------|----0h--0---------------|3-----------------------|
|------------------------|------------------------|------------------------|
 
 |       |        |       |       |        |       |        
|----------------|------------------------|----------------|
|--------0---2---|3---0-0-0-------0-------|--------0---2---|
|4---------------|------------0-----------|----------------|
|0---------------|2-----------------------|2---------------|
|----------------|0---------------0p------|0---------------|
|5---------------|------------5-----------|----------------|
 
 |       |       |        |       |        
|------------------------|----------------|
|3-----0---------0h------|0-------0h--2---|
|----2---0---4-----------|----------------|
|------------------------|----2-----------|
|----------------0h------|----------------|
|3-------5---------------|----------------|
 

Created with TablEdit http://www.tabledit.com/

Partager cet article

Repost 0
dominique rivière - dans domriviere
commenter cet article

commentaires